  0
SECTION
  2
HEADER
  9
$ACADVER
  1
AC1015
  9
$ACADMAINTVER
 70
     6
  9
$DWGCODEPAGE
  3
ANSI_1254
  9
$INSBASE
 10
0.0
 20
0.0
 30
0.0
  9
$EXTMIN
 10
0.0
 20
0.0
 30
0.0
  9
$EXTMAX
 10
279.4
 20
215.9
 30
0.0
  9
$LIMMIN
 10
0.0
 20
0.0
  9
$LIMMAX
 10
279.4
 20
215.9
  9
$ORTHOMODE
 70
     0
  9
$REGENMODE
 70
     1
  9
$FILLMODE
 70
     1
  9
$QTEXTMODE
 70
     0
  9
$MIRRTEXT
 70
     1
  9
$LTSCALE
 40
1.0
  9
$ATTMODE
 70
     1
  9
$TEXTSIZE
 40
3.5
  9
$TRACEWID
 40
1.0
  9
$TEXTSTYLE
  7
Standard
  9
$CLAYER
  8
0
  9
$CELTYPE
  6
ByLayer
  9
$CECOLOR
 62
   256
  9
$CELTSCALE
 40
1.0
  9
$DISPSILH
 70
     0
  9
$DIMSCALE
 40
1.0
  9
$DIMASZ
 40
3.5
  9
$DIMEXO
 40
1.0
  9
$DIMDLI
 40
3.75
  9
$DIMRND
 40
0.0
  9
$DIMDLE
 40
0.0
  9
$DIMEXE
 40
1.0
  9
$DIMTP
 40
0.0
  9
$DIMTM
 40
0.0
  9
$DIMTXT
 40
3.5
  9
$DIMCEN
 40
2.5
  9
$DIMTSZ
 40
0.0
  9
$DIMTOL
 70
     0
  9
$DIMLIM
 70
     0
  9
$DIMTIH
 70
     1
  9
$DIMTOH
 70
     1
  9
$DIMSE1
 70
     0
  9
$DIMSE2
 70
     0
  9
$DIMTAD
 70
     1
  9
$DIMZIN
 70
     0
  9
$DIMBLK
  1

  9
$DIMASO
 70
     1
  9
$DIMSHO
 70
     1
  9
$DIMPOST
  1

  9
$DIMAPOST
  1

  9
$DIMALT
 70
     0
  9
$DIMALTD
 70
     3
  9
$DIMALTF
 40
0.0393700787
  9
$DIMLFAC
 40
1.0
  9
$DIMTOFL
 70
     1
  9
$DIMTVP
 40
0.0
  9
$DIMTIX
 70
     0
  9
$DIMSOXD
 70
     0
  9
$DIMSAH
 70
     0
  9
$DIMBLK1
  1

  9
$DIMBLK2
  1

  9
$DIMSTYLE
  2
ISO-25
  9
$DIMCLRD
 70
     0
  9
$DIMCLRE
 70
     0
  9
$DIMCLRT
 70
     0
  9
$DIMTFAC
 40
1.0
  9
$DIMGAP
 40
1.524
  9
$DIMJUST
 70
     0
  9
$DIMSD1
 70
     0
  9
$DIMSD2
 70
     0
  9
$DIMTOLJ
 70
     0
  9
$DIMTZIN
 70
     0
  9
$DIMALTZ
 70
     0
  9
$DIMALTTZ
 70
     0
  9
$DIMUPT
 70
     0
  9
$DIMDEC
 70
     2
  9
$DIMTDEC
 70
     2
  9
$DIMALTU
 70
     2
  9
$DIMALTTD
 70
     3
  9
$DIMTXSTY
  7
Standard
  9
$DIMAUNIT
 70
     0
  9
$DIMADEC
 70
     2
  9
$DIMALTRND
 40
0.0
  9
$DIMAZIN
 70
     0
  9
$DIMDSEP
 70
    44
  9
$DIMATFIT
 70
     3
  9
$DIMFRAC
 70
     0
  9
$DIMLDRBLK
  1

  9
$DIMLUNIT
 70
     2
  9
$DIMLWD
 70
    -2
  9
$DIMLWE
 70
    -2
  9
$DIMTMOVE
 70
     0
  9
$LUNITS
 70
     2
  9
$LUPREC
 70
     2
  9
$SKETCHINC
 40
1.0
  9
$FILLETRAD
 40
10.0
  9
$AUNITS
 70
     0
  9
$AUPREC
 70
     2
  9
$MENU
  1
.
  9
$ELEVATION
 40
0.0
  9
$PELEVATION
 40
0.0
  9
$THICKNESS
 40
0.0
  9
$LIMCHECK
 70
     0
  9
$CHAMFERA
 40
0.0
  9
$CHAMFERB
 40
0.0
  9
$CHAMFERC
 40
0.0
  9
$CHAMFERD
 40
0.0
  9
$SKPOLY
 70
     0
  9
$TDCREATE
 40
2458985.681829954
  9
$TDUCREATE
 40
2458985.556829954
  9
$TDUPDATE
 40
2458985.681830266
  9
$TDUUPDATE
 40
2458985.556830266
  9
$TDINDWG
 40
0.0000000116
  9
$TDUSRTIMER
 40
0.0000000116
  9
$USRTIMER
 70
     1
  9
$ANGBASE
 50
0.0
  9
$ANGDIR
 70
     0
  9
$PDMODE
 70
     0
  9
$PDSIZE
 40
-1.0
  9
$PLINEWID
 40
0.0
  9
$SPLFRAME
 70
     0
  9
$SPLINETYPE
 70
     6
  9
$SPLINESEGS
 70
     8
  9
$HANDSEED
  5
CB
  9
$SURFTAB1
 70
     6
  9
$SURFTAB2
 70
     6
  9
$SURFTYPE
 70
     6
  9
$SURFU
 70
     6
  9
$SURFV
 70
     6
  9
$UCSBASE
  2

  9
$UCSNAME
  2

  9
$UCSORG
 10
0.0
 20
0.0
 30
0.0
  9
$UCSXDIR
 10
1.0
 20
0.0
 30
0.0
  9
$UCSYDIR
 10
0.0
 20
1.0
 30
0.0
  9
$UCSORTHOREF
  2

  9
$UCSORTHOVIEW
 70
     0
  9
$UCSORGTOP
 10
0.0
 20
0.0
 30
0.0
  9
$UCSORGBOTTOM
 10
0.0
 20
0.0
 30
0.0
  9
$UCSORGLEFT
 10
0.0
 20
0.0
 30
0.0
  9
$UCSORGRIGHT
 10
0.0
 20
0.0
 30
0.0
  9
$UCSORGFRONT
 10
0.0
 20
0.0
 30
0.0
  9
$UCSORGBACK
 10
0.0
 20
0.0
 30
0.0
  9
$PUCSBASE
  2

  9
$PUCSNAME
  2

  9
$PUCSORG
 10
0.0
 20
0.0
 30
0.0
  9
$PUCSXDIR
 10
1.0
 20
0.0
 30
0.0
  9
$PUCSYDIR
 10
0.0
 20
1.0
 30
0.0
  9
$PUCSORTHOREF
  2

  9
$PUCSORTHOVIEW
 70
     0
  9
$PUCSORGTOP
 10
0.0
 20
0.0
 30
0.0
  9
$PUCSORGBOTTOM
 10
0.0
 20
0.0
 30
0.0
  9
$PUCSORGLEFT
 10
0.0
 20
0.0
 30
0.0
  9
$PUCSORGRIGHT
 10
0.0
 20
0.0
 30
0.0
  9
$PUCSORGFRONT
 10
0.0
 20
0.0
 30
0.0
  9
$PUCSORGBACK
 10
0.0
 20
0.0
 30
0.0
  9
$USERI1
 70
     0
  9
$USERI2
 70
     0
  9
$USERI3
 70
     0
  9
$USERI4
 70
     0
  9
$USERI5
 70
     0
  9
$USERR1
 40
0.0
  9
$USERR2
 40
0.0
  9
$USERR3
 40
0.0
  9
$USERR4
 40
0.0
  9
$USERR5
 40
0.0
  9
$WORLDVIEW
 70
     1
  9
$SHADEDGE
 70
     3
  9
$SHADEDIF
 70
    70
  9
$TILEMODE
 70
     1
  9
$MAXACTVP
 70
    64
  9
$PINSBASE
 10
0.0
 20
0.0
 30
0.0
  9
$PLIMCHECK
 70
     0
  9
$PEXTMIN
 10
1.0000000000E+20
 20
1.0000000000E+20
 30
1.0000000000E+20
  9
$PEXTMAX
 10
-1.0000000000E+20
 20
-1.0000000000E+20
 30
-1.0000000000E+20
  9
$PLIMMIN
 10
0.0
 20
0.0
  9
$PLIMMAX
 10
420.0
 20
297.0
  9
$UNITMODE
 70
     0
  9
$VISRETAIN
 70
     1
  9
$PLINEGEN
 70
     0
  9
$PSLTSCALE
 70
     1
  9
$TREEDEPTH
 70
  3020
  9
$CMLSTYLE
  2
Standard
  9
$CMLJUST
 70
     0
  9
$CMLSCALE
 40
20.0
  9
$PROXYGRAPHICS
 70
     1
  9
$MEASUREMENT
 70
     1
  9
$CELWEIGHT
370
    -1
  9
$ENDCAPS
280
     0
  9
$JOINSTYLE
280
     0
  9
$LWDISPLAY
290
     1
  9
$INSUNITS
 70
     4
  9
$HYPERLINKBASE
  1

  9
$STYLESHEET
  1

  9
$XEDIT
290
     1
  9
$CEPSNTYPE
380
     0
  9
$PSTYLEMODE
290
     1
  9
$FINGERPRINTGUID
  2
{01a22708-5196-46a2-afb2-3d1dcd12a4d9}
  9
$VERSIONGUID
  2
{FAEB1C32-E019-11D5-929B-00C0DF256EC4}
  9
$EXTNAMES
290
     1
  9
$PSVPSCALE
 40
0.0
  9
$OLESTARTUP
290
     0
  0
ENDSEC
  0
SECTION
  2
CLASSES
  0
CLASS
  1
ACDBDICTIONARYWDFLT
  2
AcDbDictionaryWithDefault
  3
ObjectDBX Classes
 90
        0
280
     0
281
     0
  0
CLASS
  1
VISUALSTYLE
  2
AcDbVisualStyle
  3
ObjectDBX Classes
 90
     4095
280
     0
281
     0
  0
CLASS
  1
MATERIAL
  2
AcDbMaterial
  3
ObjectDBX Classes
 90
     1153
280
     0
281
     0
  0
CLASS
  1
SCALE
  2
AcDbScale
  3
ObjectDBX Classes
 90
     1153
280
     0
281
     0
  0
CLASS
  1
TABLESTYLE
  2
AcDbTableStyle
  3
ObjectDBX Classes
 90
     4095
280
     0
281
     0
  0
CLASS
  1
MLEADERSTYLE
  2
AcDbMLeaderStyle
  3
ACDB_MLEADERSTYLE_CLASS
 90
     4095
280
     0
281
     0
  0
CLASS
  1
SUN
  2
AcDbSun
  3
SCENEOE
 90
     1153
280
     0
281
     0
  0
CLASS
  1
ACDBPLACEHOLDER
  2
AcDbPlaceHolder
  3
ObjectDBX Classes
 90
        0
280
     0
281
     0
  0
CLASS
  1
LAYOUT
  2
AcDbLayout
  3
ObjectDBX Classes
 90
        0
280
     0
281
     0
  0
ENDSEC
  0
SECTION
  2
TABLES
  0
TABLE
  2
VPORT
  5
8
330
0
100
AcDbSymbolTable
 70
     1
  0
VPORT
  5
29
330
8
100
AcDbSymbolTableRecord
100
AcDbViewportTableRecord
  2
*Active
 70
     0
 10
0.0
 20
0.0
 11
1.0
 21
1.0
 12
139.7
 22
107.95
 13
0.0
 23
0.0
 14
10.0
 24
10.0
 15
10.0
 25
10.0
 16
0.0
 26
0.0
 36
1.0
 17
0.0
 27
0.0
 37
0.0
 40
215.9
 41
1.2941176471
 42
50.0
 43
0.0
 44
0.0
 50
0.0
 51
0.0
 71
     0
 72
  2000
 73
     1
 74
     3
 75
     0
 76
     0
 77
     0
 78
     0
281
     0
 65
     1
110
0.0
120
0.0
130
0.0
111
1.0
121
0.0
131
0.0
112
0.0
122
1.0
132
0.0
 79
     0
146
0.0
  0
ENDTAB
  0
TABLE
  2
LTYPE
  5
5
330
0
100
AcDbSymbolTable
 70
     6
  0
LTYPE
  5
14
330
5
100
AcDbSymbolTableRecord
100
AcDbLinetypeTableRecord
  2
ByBlock
 70
     0
  3

 72
    65
 73
     0
 40
0.0
  0
LTYPE
  5
15
330
5
100
AcDbSymbolTableRecord
100
AcDbLinetypeTableRecord
  2
ByLayer
 70
     0
  3

 72
    65
 73
     0
 40
0.0
  0
LTYPE
  5
16
330
5
100
AcDbSymbolTableRecord
100
AcDbLinetypeTableRecord
  2
Continuous
 70
     0
  3
Solid line
 72
    65
 73
     0
 40
0.0
  0
LTYPE
  5
6E
330
5
100
AcDbSymbolTableRecord
100
AcDbLinetypeTableRecord
  2
HIDDEN
 70
     0
  3
Hidden __ __ __ __ __ __ __ __ __ __ __ __ __ __
 72
    65
 73
     2
 40
1.905
 49
1.27
 74
     0
 49
-0.635
 74
     0
  0
LTYPE
  5
6F
330
5
100
AcDbSymbolTableRecord
100
AcDbLinetypeTableRecord
  2
PHANTOM
 70
     0
  3
Phantom ______  __  __  ______  __  __  ______
 72
    65
 73
     6
 40
12.7
 49
6.35
 74
     0
 49
-1.27
 74
     0
 49
1.27
 74
     0
 49
-1.27
 74
     0
 49
1.27
 74
     0
 49
-1.27
 74
     0
  0
LTYPE
  5
70
330
5
100
AcDbSymbolTableRecord
100
AcDbLinetypeTableRecord
  2
CENTER
 70
     0
  3
Center ____ _ ____ _ ____ _ ____ _ ____ _ ____
 72
    65
 73
     4
 40
10.16
 49
6.35
 74
     0
 49
-1.27
 74
     0
 49
1.27
 74
     0
 49
-1.27
 74
     0
  0
LTYPE
  5
71
330
5
100
AcDbSymbolTableRecord
100
AcDbLinetypeTableRecord
  2
CENTERX2
 70
     0
  3
Center (2x) ________  __  ________  __  _____
 72
    65
 73
     4
 40
20.32
 49
12.7
 74
     0
 49
-2.54
 74
     0
 49
2.54
 74
     0
 49
-2.54
 74
     0
  0
LTYPE
  5
72
330
5
100
AcDbSymbolTableRecord
100
AcDbLinetypeTableRecord
  2
DOT2
 70
     0
  3
Dot (.5x) ........................................
 72
    65
 73
     2
 40
0.635
 49
0.0
 74
     0
 49
-0.635
 74
     0
  0
ENDTAB
  0
TABLE
  2
LAYER
  5
2
330
0
100
AcDbSymbolTable
 70
    17
  0
LAYER
  5
10
330
2
100
AcDbSymbolTableRecord
100
AcDbLayerTableRecord
  2
0
 70
     0
 62
     7
  6
Continuous
370
    -3
390
F
  0
LAYER
  5
73
330
2
100
AcDbSymbolTableRecord
100
AcDbLayerTableRecord
  2
FORMAT
 70
     0
 62
     7
  6
Continuous
370
    -3
390
F
  0
LAYER
  5
74
330
2
100
AcDbSymbolTableRecord
100
AcDbLayerTableRecord
  2
YARDIMCI_GEOMETRI
 70
     0
 62
    -6
  6
Continuous
290
     0
370
    -3
390
F
  0
LAYER
  5
75
330
2
100
AcDbSymbolTableRecord
100
AcDbLayerTableRecord
  2
SAYFA_CERCEVESI
 70
     0
 62
     7
  6
Continuous
370
    25
390
F
  0
LAYER
  5
76
330
2
100
AcDbSymbolTableRecord
100
AcDbLayerTableRecord
  2
ANTET
 70
     0
 62
     7
  6
Continuous
370
    -3
390
F
  0
LAYER
  5
77
330
2
100
AcDbSymbolTableRecord
100
AcDbLayerTableRecord
  2
OLCU
 70
     0
 62
   150
  6
Continuous
370
    -3
390
F
  0
LAYER
  5
78
330
2
100
AcDbSymbolTableRecord
100
AcDbLayerTableRecord
  2
METIN
 70
     0
 62
    96
  6
Continuous
370
    -3
390
F
  0
LAYER
  5
79
330
2
100
AcDbSymbolTableRecord
100
AcDbLayerTableRecord
  2
BALON
 70
     0
 62
     5
  6
Continuous
370
    -3
390
F
  0
LAYER
  5
7A
330
2
100
AcDbSymbolTableRecord
100
AcDbLayerTableRecord
  2
VURGU
 70
     0
 62
     7
  6
Continuous
370
    -3
390
F
  0
LAYER
  5
7B
330
2
100
AcDbSymbolTableRecord
100
AcDbLayerTableRecord
  2
SILIK
 70
     0
 62
     7
  6
Continuous
370
    -3
390
F
  0
LAYER
  5
7C
330
2
100
AcDbSymbolTableRecord
100
AcDbLayerTableRecord
  2
MODEL
 70
     0
 62
     7
  6
Continuous
370
    -3
390
F
  0
LAYER
  5
7D
330
2
100
AcDbSymbolTableRecord
100
AcDbLayerTableRecord
  2
DETAYLANDıRMA
 70
     0
 62
   190
  6
Continuous
370
    -3
390
F
  0
LAYER
  5
7E
330
2
100
AcDbSymbolTableRecord
100
AcDbLayerTableRecord
  2
TOLERANS
 70
     0
 62
   230
  6
Continuous
370
    -3
390
F
  0
LAYER
  5
7F
330
2
100
AcDbSymbolTableRecord
100
AcDbLayerTableRecord
  2
MERKEZ_CIZGILERI
 70
     0
 62
    30
  6
Continuous
370
    -3
390
F
  0
LAYER
  5
80
330
2
100
AcDbSymbolTableRecord
100
AcDbLayerTableRecord
  2
KESIT-DETAY_CIZGILERI
 70
     0
 62
     7
  6
Continuous
370
    -3
390
F
  0
LAYER
  5
81
330
2
100
AcDbSymbolTableRecord
100
AcDbLayerTableRecord
  2
\U+041E\U+0421\U+0415\U+0412\U+042B\U+0415
 70
     0
 62
     7
  6
Continuous
370
    -3
390
F
  0
LAYER
  5
82
330
2
100
AcDbSymbolTableRecord
100
AcDbLayerTableRecord
  2
\U+0412\U+041E\U+0414\U+042F\U+041D\U+042B\U+0415_\U+0417\U+041D\U+0410\U+041A\U+0418
 70
     0
 62
    11
  6
Continuous
370
    -3
390
F
  0
ENDTAB
  0
TABLE
  2
STYLE
  5
3
330
0
100
AcDbSymbolTable
 70
     1
  0
STYLE
  5
11
330
3
100
AcDbSymbolTableRecord
100
AcDbTextStyleTableRecord
  2
Standard
 70
     0
 40
0.0
 41
1.0
 50
0.0
 71
     0
 42
3.5
  3
txt
  4

  0
ENDTAB
  0
TABLE
  2
VIEW
  5
6
330
0
100
AcDbSymbolTable
 70
     0
  0
ENDTAB
  0
TABLE
  2
UCS
  5
7
330
0
100
AcDbSymbolTable
 70
     0
  0
ENDTAB
  0
TABLE
  2
APPID
  5
9
330
0
100
AcDbSymbolTable
 70
     1
  0
APPID
  5
12
330
9
100
AcDbSymbolTableRecord
100
AcDbRegAppTableRecord
  2
ACAD
 70
     0
  0
ENDTAB
  0
TABLE
  2
DIMSTYLE
  5
A
330
0
100
AcDbSymbolTable
 70
     1
100
AcDbDimStyleTable
  0
DIMSTYLE
105
27
330
A
100
AcDbSymbolTableRecord
100
AcDbDimStyleTableRecord
  2
ISO-25
 70
     0
 41
2.5
 42
0.625
 43
3.75
 44
1.25
 73
     0
 74
     0
 77
     1
 78
     8
140
2.5
141
2.5
143
0.0393700787
147
0.625
171
     3
172
     1
178
     0
271
     2
272
     2
274
     3
278
    44
283
     0
284
     8
340
11
  0
ENDTAB
  0
TABLE
  2
BLOCK_RECORD
  5
1
330
0
100
AcDbSymbolTable
 70
     3
  0
BLOCK_RECORD
  5
1F
330
1
100
AcDbSymbolTableRecord
100
AcDbBlockTableRecord
  2
*Model_Space
340
22
  0
BLOCK_RECORD
  5
1B
330
1
100
AcDbSymbolTableRecord
100
AcDbBlockTableRecord
  2
*Paper_Space
340
1E
  0
BLOCK_RECORD
  5
23
330
1
100
AcDbSymbolTableRecord
100
AcDbBlockTableRecord
  2
*Paper_Space0
340
26
  0
BLOCK_RECORD
  5
88
330
1
100
AcDbSymbolTableRecord
100
AcDbBlockTableRecord
  2
SW_CENTERMARKSYMBOL_0
340
0
102
{BLKREFS
331
93
102
}
  0
BLOCK_RECORD
  5
B2
330
1
100
AcDbSymbolTableRecord
100
AcDbBlockTableRecord
  2
SW_CENTERMARKSYMBOL_1
340
0
102
{BLKREFS
331
BD
102
}
  0
ENDTAB
  0
ENDSEC
  0
SECTION
  2
BLOCKS
  0
BLOCK
  5
20
330
1F
100
AcDbEntity
  8
0
100
AcDbBlockBegin
  2
*Model_Space
 70
     0
 10
0.0
 20
0.0
 30
0.0
  3
*Model_Space
  1

  0
ENDBLK
  5
21
330
1F
100
AcDbEntity
  8
0
100
AcDbBlockEnd
  0
BLOCK
  5
1C
330
1B
100
AcDbEntity
 67
     1
  8
0
100
AcDbBlockBegin
  2
*Paper_Space
 70
     0
 10
0.0
 20
0.0
 30
0.0
  3
*Paper_Space
  1

  0
ENDBLK
  5
1D
330
1B
100
AcDbEntity
 67
     1
  8
0
100
AcDbBlockEnd
  0
BLOCK
  5
24
330
23
100
AcDbEntity
  8
0
100
AcDbBlockBegin
  2
*Paper_Space0
 70
     0
 10
0.0
 20
0.0
 30
0.0
  3
*Paper_Space0
  1

  0
ENDBLK
  5
25
330
23
100
AcDbEntity
  8
0
100
AcDbBlockEnd
  0
BLOCK
  5
89
330
88
100
AcDbEntity
  8
0
100
AcDbBlockBegin
  2
SW_CENTERMARKSYMBOL_0
 70
     0
 10
0.0
 20
0.0
 30
0.0
  3
SW_CENTERMARKSYMBOL_0
  1

  0
LINE
  5
8B
330
88
100
AcDbEntity
  8
FORMAT
 62
     0
100
AcDbLine
 10
0.0
 20
0.0
 30
0.0
 11
0.0
 21
2.5
 31
0.0
  0
LINE
  5
8C
330
88
100
AcDbEntity
  8
FORMAT
 62
     0
100
AcDbLine
 10
0.0
 20
0.0
 30
0.0
 11
-2.5
 21
0.0
 31
0.0
  0
LINE
  5
8D
330
88
100
AcDbEntity
  8
FORMAT
 62
     0
100
AcDbLine
 10
0.0
 20
0.0
 30
0.0
 11
0.0
 21
-2.5
 31
0.0
  0
LINE
  5
8E
330
88
100
AcDbEntity
  8
FORMAT
 62
     0
100
AcDbLine
 10
0.0
 20
0.0
 30
0.0
 11
2.5
 21
0.0
 31
0.0
  0
LINE
  5
8F
330
88
100
AcDbEntity
  8
FORMAT
 62
     0
100
AcDbLine
 10
0.0
 20
5.0
 30
0.0
 11
0.0
 21
27.5
 31
0.0
  0
LINE
  5
90
330
88
100
AcDbEntity
  8
FORMAT
 62
     0
100
AcDbLine
 10
-5.0
 20
0.0
 30
0.0
 11
-27.5
 21
0.0
 31
0.0
  0
LINE
  5
91
330
88
100
AcDbEntity
  8
FORMAT
 62
     0
100
AcDbLine
 10
0.0
 20
-5.0
 30
0.0
 11
0.0
 21
-27.5
 31
0.0
  0
LINE
  5
92
330
88
100
AcDbEntity
  8
FORMAT
 62
     0
100
AcDbLine
 10
5.0
 20
0.0
 30
0.0
 11
27.5
 21
0.0
 31
0.0
  0
ENDBLK
  5
8A
330
88
100
AcDbEntity
  8
0
100
AcDbBlockEnd
  0
BLOCK
  5
B3
330
B2
100
AcDbEntity
  8
0
100
AcDbBlockBegin
  2
SW_CENTERMARKSYMBOL_1
 70
     0
 10
0.0
 20
0.0
 30
0.0
  3
SW_CENTERMARKSYMBOL_1
  1

  0
LINE
  5
B5
330
B2
100
AcDbEntity
  8
FORMAT
 62
     0
100
AcDbLine
 10
0.0
 20
0.0
 30
0.0
 11
0.0
 21
2.5
 31
0.0
  0
LINE
  5
B6
330
B2
100
AcDbEntity
  8
FORMAT
 62
     0
100
AcDbLine
 10
0.0
 20
0.0
 30
0.0
 11
-2.5
 21
0.0
 31
0.0
  0
LINE
  5
B7
330
B2
100
AcDbEntity
  8
FORMAT
 62
     0
100
AcDbLine
 10
0.0
 20
0.0
 30
0.0
 11
0.0
 21
-2.5
 31
0.0
  0
LINE
  5
B8
330
B2
100
AcDbEntity
  8
FORMAT
 62
     0
100
AcDbLine
 10
0.0
 20
0.0
 30
0.0
 11
2.5
 21
0.0
 31
0.0
  0
LINE
  5
B9
330
B2
100
AcDbEntity
  8
FORMAT
 62
     0
100
AcDbLine
 10
0.0
 20
5.0
 30
0.0
 11
0.0
 21
18.5
 31
0.0
  0
LINE
  5
BA
330
B2
100
AcDbEntity
  8
FORMAT
 62
     0
100
AcDbLine
 10
-5.0
 20
0.0
 30
0.0
 11
-18.5
 21
0.0
 31
0.0
  0
LINE
  5
BB
330
B2
100
AcDbEntity
  8
FORMAT
 62
     0
100
AcDbLine
 10
0.0
 20
-5.0
 30
0.0
 11
0.0
 21
-18.5
 31
0.0
  0
LINE
  5
BC
330
B2
100
AcDbEntity
  8
FORMAT
 62
     0
100
AcDbLine
 10
5.0
 20
0.0
 30
0.0
 11
18.5
 21
0.0
 31
0.0
  0
ENDBLK
  5
B4
330
B2
100
AcDbEntity
  8
0
100
AcDbBlockEnd
  0
ENDSEC
  0
SECTION
  2
ENTITIES
  0
LINE
  5
83
330
1F
100
AcDbEntity
  8
0
  6
Continuous
 62
     7
370
    25
100
AcDbLine
 10
137.762884528
 20
99.0029005303
 30
0.0
 11
206.5275510204
 21
99.0029005303
 31
0.0
  0
LINE
  5
84
330
1F
100
AcDbEntity
  8
0
  6
Continuous
 62
     7
370
    25
100
AcDbLine
 10
206.5275510204
 20
131.0029005303
 30
0.0
 11
137.7703884243
 21
131.0029005303
 31
0.0
  0
CIRCLE
  5
85
330
1F
100
AcDbEntity
  8
0
  6
Continuous
 62
     7
370
    25
100
AcDbCircle
 10
118.5275510204
 20
115.0029005303
 30
0.0
 40
20.40000000000002
  0
CIRCLE
  5
86
330
1F
100
AcDbEntity
  8
0
  6
Continuous
 62
     7
370
    25
100
AcDbCircle
 10
118.5275510204
 20
115.0029005303
 30
0.0
 40
25.00000000000004
  0
LINE
  5
87
330
1F
100
AcDbEntity
  8
0
  6
Continuous
 62
     7
370
    25
100
AcDbLine
 10
206.5275510204
 20
131.0029005303
 30
0.0
 11
206.5275510204
 21
99.0029005303
 31
0.0
  0
INSERT
  5
93
330
1F
100
AcDbEntity
  8
FORMAT
100
AcDbBlockReference
  2
SW_CENTERMARKSYMBOL_0
 10
118.5275510204
 20
115.0029005303
 30
0.0
  0
LINE
  5
94
330
1F
100
AcDbEntity
  8
0
  6
Continuous
 62
     7
370
    25
100
AcDbLine
 10
93.5275510204
 20
41.6792398827
 30
0.0
 11
93.5275510204
 21
-187.3207601173
 31
0.0
  0
LINE
  5
95
330
1F
100
AcDbEntity
  8
0
  6
Continuous
 62
     7
370
    25
100
AcDbLine
 10
143.5275510204
 20
-56.841966899
 30
0.0
 11
143.5275510204
 21
41.6792398827
 31
0.0
  0
LINE
  5
96
330
1F
100
AcDbEntity
  8
0
  6
Continuous
 62
     7
370
    25
100
AcDbLine
 10
143.5275510204
 20
-187.3207601173
 30
0.0
 11
143.5275510204
 21
-88.8207601173
 31
0.0
  0
LINE
  5
97
330
1F
100
AcDbEntity
  8
0
  6
Continuous
 62
     7
370
    25
100
AcDbLine
 10
143.5275510204
 20
-88.8207601173
 30
0.0
 11
206.5275510204
 21
-88.8207601173
 31
0.0
  0
LINE
  5
98
330
1F
100
AcDbEntity
  8
0
  6
Continuous
 62
     7
370
    25
100
AcDbLine
 10
206.5275510204
 20
-56.8207601173
 30
0.0
 11
143.5140295721
 21
-56.8207601173
 31
0.0
  0
SPLINE
  5
99
330
1F
100
AcDbEntity
  8
0
  6
Continuous
 62
     7
370
    25
100
AcDbSpline
210
0.0
220
0.0
230
1.0
 70
     8
 71
     3
 72
    28
 73
    24
 74
     0
 42
0.000000001
 43
0.00000001
 40
0.0
 40
0.0
 40
0.0
 40
0.0
 40
0.0064310713265911
 40
0.0536768705522608
 40
0.0971619062632287
 40
0.1417502576431453
 40
0.1885620527462146
 40
0.2364048079838158
 40
0.290303297975087
 40
0.3455608396249896
 40
0.3920587816097105
 40
0.4397723348667796
 40
0.4863472233331254
 40
0.5347695494842881
 40
0.5749357524455128
 40
0.6160951397283099
 40
0.6700613793036203
 40
0.7255810278449589
 40
0.7802687779168828
 40
0.8364320432327634
 40
0.8924064212961765
 40
0.9506107110362069
 40
1.0
 40
1.0
 40
1.0
 40
1.0
 10
143.5140068125908
 20
-56.84196689898797
 30
0.0
 10
143.5183564507248
 20
-56.83515605763183
 30
0.0
 10
143.5546606605851
 20
-56.77830944044167
 30
0.0
 10
143.4031695740784
 20
-57.01477705455278
 30
0.0
 10
143.0652023175614
 20
-57.55029466503167
 30
0.0
 10
142.535776282884
 20
-58.4120845975276
 30
0.0
 10
141.8521796191996
 20
-59.57587003493937
 30
0.0
 10
141.0174928198908
 20
-61.0955937697461
 30
0.0
 10
140.0840312894336
 20
-62.97993239022488
 30
0.0
 10
139.1898657734422
 20
-65.11637289950482
 30
0.0
 10
138.4528943590069
 20
-67.38449508529197
 30
0.0
 10
137.9433646907244
 20
-69.68720401966914
 30
0.0
 10
137.6957143979864
 20
-72.13658312756034
 30
0.0
 10
137.7639640130416
 20
-74.48557638518602
 30
0.0
 10
138.0868909399937
 20
-76.67712918184033
 30
0.0
 10
138.6236706902837
 20
-78.85270888296729
 30
0.0
 10
139.4062001153044
 20
-81.09225821244208
 30
0.0
 10
140.3692484822629
 20
-83.26691966826857
 30
0.0
 10
141.35028749786
 20
-85.1735684493825
 30
0.0
 10
142.2489078551157
 20
-86.75339563265959
 30
0.0
 10
142.9793720351695
 20
-87.95657232194966
 30
0.0
 10
143.4456170666409
 20
-88.69317553333666
 30
0.0
 10
143.5017733047969
 20
-88.78061999260562
 30
0.0
 10
143.527551020408
 20
-88.82076011731517
 30
0.0
  0
LINE
  5
9A
330
1F
100
AcDbEntity
  8
0
  6
Continuous
 62
     7
370
    25
100
AcDbLine
 10
143.5275510204
 20
-187.3207601173
 30
0.0
 11
93.5275510204
 21
-187.3207601173
 31
0.0
  0
LINE
  5
9B
330
1F
100
AcDbEntity
  8
0
  6
Continuous
 62
     7
370
    25
100
AcDbLine
 10
143.5275510204
 20
41.6792398827
 30
0.0
 11
93.5275510204
 21
41.6792398827
 31
0.0
  0
LINE
  5
9C
330
1F
100
AcDbEntity
  8
0
  6
Continuous
 62
     7
370
    25
100
AcDbLine
 10
206.5275510204
 20
-56.8207601173
 30
0.0
 11
206.5275510204
 21
-88.8207601173
 31
0.0
  0
LINE
  5
9D
330
1F
100
AcDbEntity
  8
0
  6
Continuous
 62
     7
370
    25
100
AcDbLine
 10
143.5275510204
 20
317.9854136336
 30
0.0
 11
143.5275510204
 21
416.4854136336
 31
0.0
  0
LINE
  5
9E
330
1F
100
AcDbEntity
  8
0
  6
Continuous
 62
     7
370
    25
100
AcDbLine
 10
143.5275510204
 20
187.4854136336
 30
0.0
 11
143.5275510204
 21
286.0066204153
 31
0.0
  0
LINE
  5
9F
330
1F
100
AcDbEntity
  8
0
  6
Continuous
 62
     7
370
    25
100
AcDbLine
 10
93.5275510204
 20
416.4854136336
 30
0.0
 11
93.5275510204
 21
187.4854136336
 31
0.0
  0
LINE
  5
A0
330
1F
100
AcDbEntity
  8
0
  6
Continuous
 62
     7
370
    25
100
AcDbLine
 10
143.5140295721
 20
285.9854136336
 30
0.0
 11
206.5275510204
 21
285.9854136336
 31
0.0
  0
LINE
  5
A1
330
1F
100
AcDbEntity
  8
0
  6
Continuous
 62
     7
370
    25
100
AcDbLine
 10
206.5275510204
 20
317.9854136336
 30
0.0
 11
143.5275510204
 21
317.9854136336
 31
0.0
  0
SPLINE
  5
A2
330
1F
100
AcDbEntity
  8
0
  6
Continuous
 62
     7
370
    25
100
AcDbSpline
210
0.0
220
0.0
230
1.0
 70
     8
 71
     3
 72
    28
 73
    24
 74
     0
 42
0.000000001
 43
0.00000001
 40
0.0
 40
0.0
 40
0.0
 40
0.0
 40
0.046133060452428
 40
0.0937475272657575
 40
0.1398494399122674
 40
0.1871075938827974
 40
0.2370810886412116
 40
0.288169384110536
 40
0.3450282909021686
 40
0.4036987434284632
 40
0.4452330351424415
 40
0.4879045720448183
 40
0.5294745415678247
 40
0.5723408727998027
 40
0.6129060337667601
 40
0.6543097216309346
 40
0.7027519318203284
 40
0.7522006672430441
 40
0.8091769210483627
 40
0.8679470309001155
 40
0.9136721218184173
 40
0.9606727762732044
 40
1.0
 40
1.0
 40
1.0
 40
1.0
 10
143.527551020408
 20
317.9854136335877
 30
0.0
 10
143.505276552066
 20
317.9507223081016
 30
0.0
 10
143.4600123465757
 20
317.8802256631794
 30
0.0
 10
143.1040983429174
 20
317.318747938912
 30
0.0
 10
142.5681183825536
 20
316.4478876839295
 30
0.0
 10
141.8664844656907
 20
315.2561133845208
 30
0.0
 10
141.0334218761049
 20
313.7410254629914
 30
0.0
 10
140.0956773055945
 20
311.8493588686885
 30
0.0
 10
139.1358060996486
 20
309.5693815067492
 30
0.0
 10
138.3739333590932
 20
307.1568082442105
 30
0.0
 10
137.9031356955244
 20
304.7967928367794
 30
0.0
 10
137.7060548867613
 20
302.6346567464115
 30
0.0
 10
137.7587025508062
 20
300.4295405123978
 30
0.0
 10
138.0501554503859
 20
298.3087296505344
 30
0.0
 10
138.5342254927991
 20
296.2931549274278
 30
0.0
 10
139.1818153238868
 20
294.3231123975612
 30
0.0
 10
139.9740548072438
 20
292.3972312528686
 30
0.0
 10
140.8941818516229
 20
290.4921688503994
 30
0.0
 10
141.8370326722844
 20
288.7592598600354
 30
0.0
 10
142.6264072198962
 20
287.4256028875012
 30
0.0
 10
143.1700023196495
 20
286.5472153645387
 30
0.0
 10
143.4798055983796
 20
286.0598305406677
 30
0.0
 10
143.5033026009625
 20
286.0232739890083
 30
0.0
 10
143.5140068125908
 20
286.0066204152605
 30
0.0
  0
LINE
  5
A3
330
1F
100
AcDbEntity
  8
0
  6
Continuous
 62
     7
370
    25
100
AcDbLine
 10
93.5275510204
 20
416.4854136336
 30
0.0
 11
143.5275510204
 21
416.4854136336
 31
0.0
  0
LINE
  5
A4
330
1F
100
AcDbEntity
  8
0
  6
Continuous
 62
     7
370
    25
100
AcDbLine
 10
93.5275510204
 20
187.4854136336
 30
0.0
 11
143.5275510204
 21
187.4854136336
 31
0.0
  0
LINE
  5
A5
330
1F
100
AcDbEntity
  8
0
  6
Continuous
 62
     7
370
    25
100
AcDbLine
 10
206.5275510204
 20
317.9854136336
 30
0.0
 11
206.5275510204
 21
285.9854136336
 31
0.0
  0
LINE
  5
A6
330
1F
100
AcDbEntity
  8
0
  6
Continuous
 62
     7
370
    25
100
AcDbLine
 10
243.2004421305
 20
90.0029005303
 30
0.0
 11
472.2004421305
 21
90.0029005303
 31
0.0
  0
LINE
  5
A7
330
1F
100
AcDbEntity
  8
0
  6
Continuous
 62
     7
370
    25
100
AcDbLine
 10
472.2004421305
 20
140.0029005303
 30
0.0
 11
243.2004421305
 21
140.0029005303
 31
0.0
  0
LINE
  5
A8
330
1F
100
AcDbEntity
  8
0
  6
Continuous
 62
     7
370
    25
100
AcDbLine
 10
472.2004421305
 20
140.0029005303
 30
0.0
 11
472.2004421305
 21
90.0029005303
 31
0.0
  0
LINE
  5
A9
330
1F
100
AcDbEntity
  8
0
  6
Continuous
 62
     7
370
    25
100
AcDbLine
 10
243.2004421305
 20
140.0029005303
 30
0.0
 11
243.2004421305
 21
90.0029005303
 31
0.0
  0
LINE
  5
AA
330
1F
100
AcDbEntity
  8
0
  6
Continuous
 62
     7
370
    25
100
AcDbLine
 10
25.8647285752
 20
140.0029005303
 30
0.0
 11
-203.1352714248
 21
140.0029005303
 31
0.0
  0
LINE
  5
AB
330
1F
100
AcDbEntity
  8
0
  6
Continuous
 62
     7
370
    25
100
AcDbLine
 10
-203.1352714248
 20
90.0029005303
 30
0.0
 11
25.8647285752
 21
90.0029005303
 31
0.0
  0
CIRCLE
  5
AC
330
1F
100
AcDbEntity
  8
0
  6
Continuous
 62
     7
370
    25
100
AcDbCircle
 10
-88.6352714248
 20
115.0029005303
 30
0.0
 40
13.0
  0
CIRCLE
  5
AD
330
1F
100
AcDbEntity
  8
0
  6
Continuous
 62
     7
370
    25
100
AcDbCircle
 10
-88.6352714248
 20
115.0029005303
 30
0.0
 40
16.0
  0
LINE
  5
AE
330
1F
100
AcDbEntity
  8
0
  6
Continuous
 62
     7
370
    25
100
AcDbLine
 10
-203.1352714248
 20
115.0029005303
 30
0.0
 11
-203.1352714248
 21
140.0029005303
 31
0.0
  0
LINE
  5
AF
330
1F
100
AcDbEntity
  8
0
  6
Continuous
 62
     7
370
    25
100
AcDbLine
 10
-203.1352714248
 20
90.0029005303
 30
0.0
 11
-203.1352714248
 21
115.0029005303
 31
0.0
  0
LINE
  5
B0
330
1F
100
AcDbEntity
  8
0
  6
Continuous
 62
     7
370
    25
100
AcDbLine
 10
25.8647285752
 20
115.0029005303
 30
0.0
 11
25.8647285752
 21
140.0029005303
 31
0.0
  0
LINE
  5
B1
330
1F
100
AcDbEntity
  8
0
  6
Continuous
 62
     7
370
    25
100
AcDbLine
 10
25.8647285752
 20
90.0029005303
 30
0.0
 11
25.8647285752
 21
115.0029005303
 31
0.0
  0
INSERT
  5
BD
330
1F
100
AcDbEntity
  8
FORMAT
100
AcDbBlockReference
  2
SW_CENTERMARKSYMBOL_1
 10
-88.6352714248
 20
115.0029005303
 30
0.0
  0
LINE
  5
BE
330
1F
100
AcDbEntity
  8
0
  6
Continuous
 62
     7
370
    25
100
AcDbLine
 10
460.3851533854
 20
-112.7535173163
 30
0.0
 11
407.9257750143
 21
-82.469362799
 31
0.0
  0
LINE
  5
BF
330
1F
100
AcDbEntity
  8
0
  6
Continuous
 62
     7
370
    25
100
AcDbLine
 10
375.9231742473
 20
-63.9946546214
 30
0.0
 11
298.4577004936
 21
-19.2747885126
 31
0.0
  0
LINE
  5
C0
330
1F
100
AcDbEntity
  8
0
  6
Continuous
 62
     7
370
    25
100
AcDbLine
 10
273.4597321777
 20
-62.5772316316
 30
0.0
 11
435.3871850695
 21
-156.0559604353
 31
0.0
  0
LINE
  5
C1
330
1F
100
AcDbEntity
  8
0
  6
Continuous
 62
     7
370
    25
100
AcDbLine
 10
390.6852888415
 20
-92.4220836169
 30
0.0
 11
437.1471893871
 21
-65.6001993518
 31
0.0
  0
LINE
  5
C2
330
1F
100
AcDbEntity
  8
0
  6
Continuous
 62
     7
370
    25
100
AcDbLine
 10
421.1484896649
 20
-37.8866357557
 30
0.0
 11
374.6828040105
 21
-64.7107051176
 31
0.0
  0
SPLINE
  5
C3
330
1F
100
AcDbEntity
  8
0
  6
Continuous
 62
     7
370
    25
100
AcDbSpline
210
0.0
220
0.0
230
1.0
 70
     8
 71
     3
 72
    23
 73
    19
 74
     0
 42
0.000000001
 43
0.00000001
 40
0.0
 40
0.0
 40
0.0
 40
0.0
 40
0.061440315369595
 40
0.1248535775394173
 40
0.1862524100548527
 40
0.2491911324213943
 40
0.3157461636282211
 40
0.3837858938032249
 40
0.4595109623460046
 40
0.5376486594929251
 40
0.592964304207003
 40
0.6497945395929875
 40
0.7051577002493611
 40
0.7622473640132927
 40
0.81627231398162
 40
0.8714140196237671
 40
0.935929675902537
 40
1.0
 40
1.0
 40
1.0
 40
1.0
 10
373.2864038122253
 20
-70.92900818158442
 30
0.0
 10
373.2951838561381
 20
-71.60368061793783
 30
0.0
 10
373.3130258852174
 20
-72.9746903017137
 30
0.0
 10
373.4583813856374
 20
-75.26169350920586
 30
0.0
 10
373.6951775143008
 20
-77.6469456039443
 30
0.0
 10
374.0417590969041
 20
-80.1066118108583
 30
0.0
 10
374.5240238565293
 20
-82.61861299889677
 30
0.0
 10
375.1985484983778
 20
-85.19590662022111
 30
0.0
 10
376.1320048912846
 20
-87.73944571440093
 30
0.0
 10
377.2992250850003
 20
-89.87475974543946
 30
0.0
 10
378.6351074483348
 20
-91.51049576140198
 30
0.0
 10
380.0245985023651
 20
-92.66634184088477
 30
0.0
 10
381.6211263615898
 20
-93.49401598664906
 30
0.0
 10
383.3266753321119
 20
-93.95151385139906
 30
0.0
 10
385.0948335541895
 20
-94.07128179097832
 30
0.0
 10
386.9432247136896
 20
-93.87559457036117
 30
0.0
 10
388.8578731877923
 20
-93.36363822159252
 30
0.0
 10
390.0760743798557
 20
-92.7323755008009
 30
0.0
 10
390.6830654761093
 20
-92.4178372673681
 30
0.0
  0
SPLINE
  5
C4
330
1F
100
AcDbEntity
  8
0
  6
Continuous
 62
     7
370
    25
100
AcDbSpline
210
0.0
220
0.0
230
1.0
 70
     8
 71
     3
 72
    12
 73
     8
 74
     0
 42
0.000000001
 43
0.00000001
 40
0.0
 40
0.0
 40
0.0
 40
0.0
 40
0.1180979889118889
 40
0.3435120022768833
 40
0.5681679074120096
 40
0.8017736721688781
 40
1.0
 40
1.0
 40
1.0
 40
1.0
 10
374.7106778812745
 20
-64.75858328601291
 30
0.0
 10
374.5889478035029
 20
-64.81846699446983
 30
0.0
 10
374.2348711326136
 20
-64.99265093092242
 30
0.0
 10
373.850117161579
 20
-65.74816563647192
 30
0.0
 10
373.5081770293761
 20
-67.06350495548999
 30
0.0
 10
373.3190357969856
 20
-68.7985490588587
 30
0.0
 10
373.2966703498975
 20
-70.2587321011357
 30
0.0
 10
373.2864038122253
 20
-70.92900818158442
 30
0.0
  0
LWPOLYLINE
  5
C5
330
1F
100
AcDbEntity
  8
0
  6
Continuous
 62
     7
370
    25
100
AcDbPolyline
 90
       75
 70
   128
 43
0.0
 10
303.6363858654
 20
-30.7209086743
 10
303.5727018583
 20
-29.0264852084
 10
303.382108682
 20
-27.4177980919
 10
303.0659795645
 20
-25.9064379521
 10
302.6265922235
 20
-24.5032941737
 10
302.0671124548
 20
-23.2184764397
 10
301.3915713229
 20
-22.0612418912
 10
300.6048361172
 20
-21.0399284298
 10
299.7125752828
 20
-20.1618946423
 10
298.7212175795
 20
-19.4334667823
 10
297.6379057624
 20
-18.8598931892
 10
296.4704451178
 20
-18.4453064738
 10
295.2272472264
 20
-18.1926937431
 10
293.9172693576
 20
-18.1038750774
 10
292.5499499319
 20
-18.1794904173
 10
291.1351405171
 20
-18.4189949526
 10
289.6830348474
 20
-18.8206630475
 10
288.2040953776
 20
-19.3816006744
 10
286.7089779002
 20
-20.0977662646
 10
285.2084547711
 20
-20.9639998287
 10
283.7133372938
 20
-21.974060134
 10
282.234397824
 20
-23.120669673
 10
280.7822921543
 20
-24.3955670975
 10
279.3674827395
 20
-25.7895667425
 10
278.0001633138
 20
-27.2926248084
 10
276.690185445
 20
-28.8939117277
 10
275.4469875536
 20
-30.5818901912
 10
274.279526909
 20
-32.3443982755
 10
273.1962150918
 20
-34.1687370694
 10
272.2048573886
 20
-36.0417621702
 10
271.3125965542
 20
-37.949978389
 10
270.5258613485
 20
-39.8796369843
 10
269.8503202166
 20
-41.8168347216
 10
269.2908404479
 20
-43.747614047
 10
268.8514531068
 20
-45.658063651
 10
268.5353239894
 20
-47.5344187006
 10
268.344730813
 20
-49.3631600146
 10
268.281046806
 20
-51.1311114699
 10
268.344730813
 20
-52.8255349358
 10
268.5353239894
 20
-54.4342220523
 10
268.8514531068
 20
-55.9455821921
 10
269.2908404479
 20
-57.3487259705
 10
269.8503202166
 20
-58.6335437045
 10
270.5258613485
 20
-59.790778253
 10
271.3125965542
 20
-60.8120917144
 10
272.2048573886
 20
-61.6901255019
 10
273.1962150918
 20
-62.4185533619
 10
274.279526909
 20
-62.992126955
 10
275.4469875536
 20
-63.4067136704
 10
276.690185445
 20
-63.6593264011
 10
278.0001633138
 20
-63.7481450668
 10
279.3674827395
 20
-63.6725297269
 10
280.7822921543
 20
-63.4330251916
 10
282.234397824
 20
-63.0313570967
 10
283.7133372938
 20
-62.4704194698
 10
285.2084547711
 20
-61.7542538796
 10
286.7089779002
 20
-60.8880203155
 10
288.2040953776
 20
-59.8779600102
 10
289.6830348474
 20
-58.7313504712
 10
291.1351405171
 20
-57.4564530467
 10
292.5499499319
 20
-56.0624534017
 10
293.9172693576
 20
-54.5593953358
 10
295.2272472264
 20
-52.9581084165
 10
296.4704451178
 20
-51.270129953
 10
297.6379057624
 20
-49.5076218687
 10
298.7212175795
 20
-47.6832830748
 10
299.7125752828
 20
-45.810257974
 10
300.6048361172
 20
-43.9020417552
 10
301.3915713229
 20
-41.9723831599
 10
302.0671124548
 20
-40.0351854226
 10
302.6265922235
 20
-38.1044060972
 10
303.0659795645
 20
-36.1939564932
 10
303.382108682
 20
-34.3176014436
 10
303.5727018583
 20
-32.4888601296
 10
303.6363858654
 20
-30.7209086743
  0
LWPOLYLINE
  5
C6
330
1F
100
AcDbEntity
  8
0
  6
Continuous
 62
     7
370
    25
100
AcDbPolyline
 90
       11
 70
   128
 43
0.0
 10
465.5638387571
 20
-124.199637478
 10
465.50015475
 20
-122.5052140121
 10
465.3095615737
 20
-120.8965268956
 10
464.9934324563
 20
-119.3851667558
 10
464.5540451152
 20
-117.9820229774
 10
463.9945653465
 20
-116.6972052434
 10
463.3190242146
 20
-115.5399706949
 10
462.5322890089
 20
-114.5186572335
 10
461.6400281745
 20
-113.640623446
 10
460.6486704713
 20
-112.912195586
 10
460.3851533854
 20
-112.7535173163
  0
LWPOLYLINE
  5
C7
330
1F
100
AcDbEntity
  8
0
  6
Continuous
 62
     7
370
    25
100
AcDbPolyline
 90
       29
 70
   128
 43
0.0
 10
435.3871850695
 20
-156.0559604353
 10
436.2069798007
 20
-156.4708557587
 10
437.3744404453
 20
-156.8854424741
 10
438.6176383367
 20
-157.1380552048
 10
439.9276162055
 20
-157.2268738705
 10
441.2949356312
 20
-157.1512585306
 10
442.709745046
 20
-156.9117539953
 10
444.1618507157
 20
-156.5100859004
 10
445.6407901855
 20
-155.9491482735
 10
447.1359076629
 20
-155.2329826833
 10
448.6364307919
 20
-154.3667491192
 10
450.1315482693
 20
-153.3566888139
 10
451.6104877391
 20
-152.2100792749
 10
453.0625934088
 20
-150.9351818504
 10
454.4774028236
 20
-149.5411822054
 10
455.8447222493
 20
-148.0381241395
 10
457.1547001181
 20
-146.4368372202
 10
458.3978980095
 20
-144.7488587567
 10
459.5653586541
 20
-142.9863506724
 10
460.6486704713
 20
-141.1620118785
 10
461.6400281745
 20
-139.2889867777
 10
462.5322890089
 20
-137.3807705589
 10
463.3190242146
 20
-135.4511119636
 10
463.9945653465
 20
-133.5139142263
 10
464.5540451152
 20
-131.5831349009
 10
464.9934324563
 20
-129.6726852969
 10
465.3095615737
 20
-127.7963302473
 10
465.50015475
 20
-125.9675889333
 10
465.5638387571
 20
-124.199637478
  0
LWPOLYLINE
  5
C8
330
1F
100
AcDbEntity
  8
0
  6
Continuous
 62
     7
370
    25
100
AcDbPolyline
 90
       68
 70
   128
 43
0.0
 10
300.3836946719
 20
-32.5986473315
 10
300.3203110577
 20
-31.0754111161
 10
300.1307172328
 20
-29.6387423186
 10
299.8165793544
 20
-28.3012664359
 10
299.3806580775
 20
-27.0747372542
 10
298.826784294
 20
-25.9699335561
 10
298.1598254666
 20
-24.9965643961
 10
297.3856428534
 20
-24.1631837776
 10
296.5110399991
 20
-23.4771154792
 10
295.5437029451
 20
-22.9443886939
 10
294.4921326841
 20
-22.5696850439
 10
293.3655704533
 20
-22.3562974382
 10
292.1739165223
 20
-22.3061011348
 10
290.9276431886
 20
-22.4195372607
 10
289.637702747
 20
-22.695608935
 10
288.3154312405
 20
-23.1318900301
 10
286.9724488388
 20
-23.7245464919
 10
285.6205577193
 20
-24.4683700341
 10
284.2716383499
 20
-25.3568239087
 10
282.9375450826
 20
-26.3821003512
 10
281.6300019768
 20
-27.5351891952
 10
280.3604997684
 20
-28.8059570546
 10
279.1401948886
 20
-30.1832363757
 10
277.9798114204
 20
-31.6549235783
 10
276.8895468554
 20
-33.2080854223
 10
275.878982478
 20
-34.8290726657
 10
274.9569991641
 20
-36.5036400142
 10
274.1316993363
 20
-38.2170713099
 10
273.4103357592
 20
-39.9543088567
 10
272.7992478017
 20
-41.7000857488
 10
272.3038057269
 20
-43.439060036
 10
271.9283634975
 20
-45.1559495498
 10
271.6762205133
 20
-46.8356662033
 10
271.549592616
 20
-48.4634485863
 10
271.549592616
 20
-50.0249916885
 10
271.6762205133
 20
-51.5065726132
 10
271.9283634975
 20
-52.8951711739
 10
272.3038057269
 20
-54.1785843164
 10
272.7992478017
 20
-55.3455333599
 10
273.4103357592
 20
-56.3857631143
 10
274.1316993363
 20
-57.2901320031
 10
274.9569991641
 20
-58.0506924
 10
275.878982478
 20
-58.6607604728
 10
276.8895468554
 20
-59.1149749214
 10
277.9798114204
 20
-59.409344093
 10
279.1401948886
 20
-59.5412810606
 10
280.3604997684
 20
-59.5096263574
 10
281.6300019768
 20
-59.314658166
 10
282.9375450826
 20
-58.9580898741
 10
284.2716383499
 20
-58.4430550165
 10
285.6205577193
 20
-57.774079738
 10
286.9724488388
 20
-56.9570430176
 10
288.3154312405
 20
-55.9991250032
 10
289.637702747
 20
-54.9087439128
 10
290.9276431886
 20
-53.6954820547
 10
292.1739165223
 20
-52.3700016176
 10
293.3655704533
 20
-50.9439509714
 10
294.4921326841
 20
-49.4298623003
 10
295.5437029451
 20
-47.8410414701
 10
296.5110399991
 20
-46.1914510953
 10
297.3856428534
 20
-44.4955878355
 10
298.1598254666
 20
-42.7683549979
 10
298.826784294
 20
-41.0249315669
 10
299.3806580775
 20
-39.2806388102
 10
299.8165793544
 20
-37.5508056354
 10
300.1307172328
 20
-35.8506338785
 10
300.3203110577
 20
-34.1950647101
 10
300.3836946719
 20
-32.5986473315
  0
LWPOLYLINE
  5
C9
330
1F
100
AcDbEntity
  8
0
  6
Continuous
 62
     7
370
    25
100
AcDbPolyline
 90
       54
 70
   128
 43
0.0
 10
438.3402276814
 20
-57.0500702806
 10
438.2757071915
 20
-55.7573500715
 10
438.0830514482
 20
-54.4082830485
 10
437.7649649156
 20
-53.0218071554
 10
437.3259128316
 20
-51.6173854746
 10
436.7720585249
 20
-50.2147330079
 10
436.111176896
 20
-48.8335399213
 10
435.3525452742
 20
-47.4931951382
 10
434.5068131846
 20
-46.2125141611
 10
433.5858528519
 20
-45.0094749438
 10
432.6025925403
 20
-43.9009655198
 10
431.5708350693
 20
-42.9025469314
 10
430.5050640521
 20
-42.0282347872
 10
429.4202405776
 20
-41.290302513
 10
428.3315931895
 20
-40.6991090605
 10
427.2544041108
 20
-40.2629534899
 10
426.2037947148
 20
-39.9879584692
 10
425.1945132545
 20
-39.8779843257
 10
424.2407278293
 20
-39.9345748555
 10
423.3558274957
 20
-40.1569356514
 10
422.5522343149
 20
-40.5419452553
 10
421.8412289734
 20
-41.0841989764
 10
421.2327924278
 20
-41.776084761
 10
420.7354657935
 20
-42.6078900494
 10
420.3562304463
 20
-43.5679381186
 10
420.100410019
 20
-44.6427519982
 10
419.9715956699
 20
-45.8172436574
 10
419.9715956699
 20
-47.0749258077
 10
420.100410019
 20
-48.3981433487
 10
420.3562304463
 20
-49.7683212065
 10
420.7354657935
 20
-51.1662250877
 10
421.2327924278
 20
-52.5722314858
 10
421.8412289734
 20
-53.9666031531
 10
422.5522343149
 20
-55.3297661679
 10
423.3558274957
 20
-56.6425847095
 10
424.2407278293
 20
-57.8866296834
 10
425.1945132545
 20
-59.044437425
 10
426.2037947148
 20
-60.0997548517
 10
427.2544041108
 20
-61.03776762
 10
428.3315931895
 20
-61.8453080869
 10
429.4202405776
 20
-62.5110401543
 10
430.5050640521
 20
-63.0256184033
 10
431.5708350693
 20
-63.3818192833
 10
432.6025925403
 20
-63.5746425146
 10
433.5858528519
 20
-63.6013812819
 10
434.5068131846
 20
-63.4616602315
 10
435.3525452742
 20
-63.1574407405
 10
436.111176896
 20
-62.6929933838
 10
436.7720585249
 20
-62.0748379843
 10
437.3259128316
 20
-61.3116520887
 10
437.7649649156
 20
-60.414149154
 10
438.0830514482
 20
-59.3949281541
 10
438.2757071915
 20
-58.2682967177
 10
438.3402276814
 20
-57.0500702806
  0
LWPOLYLINE
  5
CA
330
1F
100
AcDbEntity
  8
0
  6
Continuous
 62
     7
370
    25
100
AcDbPolyline
 90
       60
 70
   128
 43
0.0
 10
440.4615480249
 20
-58.2746824483
 10
440.3974536059
 20
-56.8489940227
 10
440.2058965643
 20
-55.3654573756
 10
439.8890473178
 20
-53.8408815701
 10
439.4504958951
 20
-52.2925406591
 10
438.895211259
 20
-50.7379779639
 10
438.2294850063
 20
-49.1948073011
 10
437.4608600814
 20
-47.6805134107
 10
436.598045312
 20
-46.2122538478
 10
435.650816734
 20
-44.8066645798
 10
434.6299068258
 20
-43.4796714948
 10
433.5468829046
 20
-42.2463099546
 10
432.4140160642
 20
-41.1205544384
 10
431.2441421384
 20
-40.115160206
 10
430.0505162665
 20
-39.2415187757
 10
428.8466627063
 20
-38.5095288541
 10
427.6462215999
 20
-37.9274841795
 10
426.4627944246
 20
-37.5019795506
 10
425.3097898832
 20
-37.2378361048
 10
424.2002719778
 20
-37.138046693
 10
423.1468119897
 20
-37.203741969
 10
422.1613460415
 20
-37.4341775792
 10
421.2550398561
 20
-37.8267425959
 10
420.4381622448
 20
-38.3769891008
 10
419.7199687573
 20
-39.078682581
 10
419.1085968128
 20
-39.923872569
 10
418.6109734997
 20
-40.9029827245
 10
418.232737089
 20
-42.0049193383
 10
417.9781731504
 20
-43.2171970281
 10
417.8501659949
 20
-44.5260802034
 10
417.8501659949
 20
-45.9167386948
 10
417.9781731504
 20
-47.3734157859
 10
418.232737089
 20
-48.8796067432
 10
418.6109734997
 20
-50.4182458213
 10
419.1085968128
 20
-51.9718996246
 10
419.7199687573
 20
-53.5229646348
 10
420.4381622448
 20
-55.0538666654
 10
421.2550398561
 20
-56.5472599849
 10
422.1613460415
 20
-57.9862238501
 10
423.1468119897
 20
-59.3544542254
 10
424.2002719778
 20
-60.636448514
 10
425.3097898832
 20
-61.8176812084
 10
426.4627944246
 20
-62.8847684701
 10
427.6462215999
 20
-63.8256197741
 10
428.8466627063
 20
-64.6295748991
 10
430.0505162665
 20
-65.2875247123
 10
431.2441421384
 20
-65.7920143795
 10
432.4140160642
 20
-66.1373278311
 10
433.5468829046
 20
-66.3195525278
 10
434.6299068258
 20
-66.3366237908
 10
435.650816734
 20
-66.1883481961
 10
436.598045312
 20
-65.8764057652
 10
437.4608600814
 20
-65.4043309307
 10
438.2294850063
 20
-64.777472489
 10
438.895211259
 20
-64.0029329967
 10
439.4504958951
 20
-63.0894882959
 10
439.8890473178
 20
-62.0474880798
 10
440.2058965643
 20
-60.8887386274
 10
440.3974536059
 20
-59.6263690329
 10
440.4615480249
 20
-58.2746824483
  0
ENDSEC
  0
SECTION
  2
OBJECTS
  0
DICTIONARY
  5
C
330
0
100
AcDbDictionary
281
     1
  3
ACAD_GROUP
350
D
  3
ACAD_LAYOUT
350
1A
  3
ACAD_MLINESTYLE
350
17
  3
ACAD_PLOTSETTINGS
350
19
  3
ACAD_PLOTSTYLENAME
350
E
  3
ACAD_SCALELIST
350
47
  0
DICTIONARY
  5
D
102
{ACAD_REACTORS
330
C
102
}
330
C
100
AcDbDictionary
281
     1
  0
DICTIONARY
  5
1A
102
{ACAD_REACTORS
330
C
102
}
330
C
100
AcDbDictionary
281
     1
  3
Layout1
350
1E
  3
Layout2
350
26
  3
Model
350
22
  0
DICTIONARY
  5
17
102
{ACAD_REACTORS
330
C
102
}
330
C
100
AcDbDictionary
281
     1
  3
Standard
350
18
  0
DICTIONARY
  5
19
102
{ACAD_REACTORS
330
C
102
}
330
C
100
AcDbDictionary
281
     1
  0
ACDBDICTIONARYWDFLT
  5
E
102
{ACAD_REACTORS
330
C
102
}
330
C
100
AcDbDictionary
281
     1
  3
Normal
350
F
100
AcDbDictionaryWithDefault
340
F
  0
DICTIONARY
  5
47
102
{ACAD_REACTORS
330
C
102
}
330
C
100
AcDbDictionary
281
     1
  3
A0
350
48
  3
A1
350
49
  3
A2
350
4A
  3
A3
350
4B
  3
A4
350
4C
  3
A5
350
4D
  3
A6
350
4E
  3
A7
350
4F
  3
A8
350
50
  3
A9
350
51
  3
B0
350
52
  3
B1
350
53
  3
B2
350
54
  3
B3
350
55
  3
B4
350
56
  3
B5
350
57
  3
B6
350
58
  3
B7
350
59
  3
B8
350
5A
  3
B9
350
5B
  3
C0
350
5C
  3
C1
350
5D
  3
C2
350
5E
  3
C3
350
5F
  3
C4
350
60
  3
C5
350
61
  3
C6
350
62
  3
C7
350
63
  3
C8
350
64
  3
C9
350
65
  3
D0
350
66
  3
D1
350
67
  3
D2
350
68
  0
LAYOUT
  5
1E
102
{ACAD_REACTORS
330
1A
102
}
330
1A
100
AcDbPlotSettings
  1

  2
none_device
  4

  6

 40
0.0
 41
0.0
 42
0.0
 43
0.0
 44
0.0
 45
0.0
 46
0.0
 47
0.0
 48
0.0
 49
0.0
140
0.0
141
0.0
142
1.0
143
1.0
 70
   688
 72
     1
 73
     0
 74
     5
  7

 75
    16
147
1.0
148
0.0
149
0.0
100
AcDbLayout
  1
Layout1
 70
     1
 71
     1
 10
0.0
 20
0.0
 11
420.0
 21
297.0
 12
0.0
 22
0.0
 32
0.0
 14
1.0000000000E+20
 24
1.0000000000E+20
 34
1.0000000000E+20
 15
-1.0000000000E+20
 25
-1.0000000000E+20
 35
-1.0000000000E+20
146
0.0
 13
0.0
 23
0.0
 33
0.0
 16
1.0
 26
0.0
 36
0.0
 17
0.0
 27
1.0
 37
0.0
 76
     0
330
1B
  0
LAYOUT
  5
26
102
{ACAD_REACTORS
330
1A
102
}
330
1A
100
AcDbPlotSettings
  1

  2
none_device
  4

  6

 40
0.0
 41
0.0
 42
0.0
 43
0.0
 44
0.0
 45
0.0
 46
0.0
 47
0.0
 48
0.0
 49
0.0
140
0.0
141
0.0
142
1.0
143
1.0
 70
   688
 72
     1
 73
     0
 74
     5
  7

 75
    16
147
1.0
148
0.0
149
0.0
100
AcDbLayout
  1
Layout2
 70
     1
 71
     2
 10
0.0
 20
0.0
 11
0.0
 21
0.0
 12
0.0
 22
0.0
 32
0.0
 14
0.0
 24
0.0
 34
0.0
 15
0.0
 25
0.0
 35
0.0
146
0.0
 13
0.0
 23
0.0
 33
0.0
 16
1.0
 26
0.0
 36
0.0
 17
0.0
 27
1.0
 37
0.0
 76
     0
330
23
  0
LAYOUT
  5
22
102
{ACAD_REACTORS
330
1A
102
}
330
1A
100
AcDbPlotSettings
  1

  2
none_device
  4
Letter_(8.50_x_11.00_Inches)
  6

 40
6.35
 41
6.35
 42
6.35000508
 43
6.35000508
 44
215.9
 45
279.4
 46
0.0
 47
0.0
 48
0.0
 49
0.0
140
0.0
141
0.0
142
1.0
143
1.0
 70
  1712
 72
     1
 73
     0
 74
     0
  7

 75
     0
147
1.0
148
0.0
149
0.0
100
AcDbLayout
  1
Model
 70
     1
 71
     0
 10
0.0
 20
0.0
 11
279.4
 21
215.9
 12
0.0
 22
0.0
 32
0.0
 14
0.0
 24
0.0
 34
0.0
 15
279.4
 25
215.9
 35
0.0
146
0.0
 13
0.0
 23
0.0
 33
0.0
 16
1.0
 26
0.0
 36
0.0
 17
0.0
 27
1.0
 37
0.0
 76
     0
330
1F
331
29
  0
MLINESTYLE
  5
18
102
{ACAD_REACTORS
330
17
102
}
330
17
100
AcDbMlineStyle
  2
Standard
 70
     0
  3

 62
   256
 51
90.0
 52
90.0
 71
     2
 49
0.5
 62
   256
  6
BYLAYER
 49
-0.5
 62
   256
  6
BYLAYER
  0
ACDBPLACEHOLDER
  5
F
102
{ACAD_REACTORS
330
E
102
}
330
E
  0
SCALE
  5
48
102
{ACAD_REACTORS
330
47
102
}
330
47
100
AcDbScale
 70
     0
300
1:1
140
1.0
141
1.0
290
     1
  0
SCALE
  5
49
102
{ACAD_REACTORS
330
47
102
}
330
47
100
AcDbScale
 70
     0
300
1:2
140
1.0
141
2.0
290
     0
  0
SCALE
  5
4A
102
{ACAD_REACTORS
330
47
102
}
330
47
100
AcDbScale
 70
     0
300
1:4
140
1.0
141
4.0
290
     0
  0
SCALE
  5
4B
102
{ACAD_REACTORS
330
47
102
}
330
47
100
AcDbScale
 70
     0
300
1:5
140
1.0
141
5.0
290
     0
  0
SCALE
  5
4C
102
{ACAD_REACTORS
330
47
102
}
330
47
100
AcDbScale
 70
     0
300
1:8
140
1.0
141
8.0
290
     0
  0
SCALE
  5
4D
102
{ACAD_REACTORS
330
47
102
}
330
47
100
AcDbScale
 70
     0
300
1:10
140
1.0
141
10.0
290
     0
  0
SCALE
  5
4E
102
{ACAD_REACTORS
330
47
102
}
330
47
100
AcDbScale
 70
     0
300
1:16
140
1.0
141
16.0
290
     0
  0
SCALE
  5
4F
102
{ACAD_REACTORS
330
47
102
}
330
47
100
AcDbScale
 70
     0
300
1:20
140
1.0
141
20.0
290
     0
  0
SCALE
  5
50
102
{ACAD_REACTORS
330
47
102
}
330
47
100
AcDbScale
 70
     0
300
1:30
140
1.0
141
30.0
290
     0
  0
SCALE
  5
51
102
{ACAD_REACTORS
330
47
102
}
330
47
100
AcDbScale
 70
     0
300
1:40
140
1.0
141
40.0
290
     0
  0
SCALE
  5
52
102
{ACAD_REACTORS
330
47
102
}
330
47
100
AcDbScale
 70
     0
300
1:50
140
1.0
141
50.0
290
     0
  0
SCALE
  5
53
102
{ACAD_REACTORS
330
47
102
}
330
47
100
AcDbScale
 70
     0
300
1:100
140
1.0
141
100.0
290
     0
  0
SCALE
  5
54
102
{ACAD_REACTORS
330
47
102
}
330
47
100
AcDbScale
 70
     0
300
2:1
140
2.0
141
1.0
290
     0
  0
SCALE
  5
55
102
{ACAD_REACTORS
330
47
102
}
330
47
100
AcDbScale
 70
     0
300
4:1
140
4.0
141
1.0
290
     0
  0
SCALE
  5
56
102
{ACAD_REACTORS
330
47
102
}
330
47
100
AcDbScale
 70
     0
300
8:1
140
8.0
141
1.0
290
     0
  0
SCALE
  5
57
102
{ACAD_REACTORS
330
47
102
}
330
47
100
AcDbScale
 70
     0
300
10:1
140
10.0
141
1.0
290
     0
  0
SCALE
  5
58
102
{ACAD_REACTORS
330
47
102
}
330
47
100
AcDbScale
 70
     0
300
100:1
140
100.0
141
1.0
290
     0
  0
SCALE
  5
59
102
{ACAD_REACTORS
330
47
102
}
330
47
100
AcDbScale
 70
     0
300
1/128" = 1'-0"
140
0.0078125
141
12.0
290
     0
  0
SCALE
  5
5A
102
{ACAD_REACTORS
330
47
102
}
330
47
100
AcDbScale
 70
     0
300
1/64" = 1'-0"
140
0.015625
141
12.0
290
     0
  0
SCALE
  5
5B
102
{ACAD_REACTORS
330
47
102
}
330
47
100
AcDbScale
 70
     0
300
1/32" = 1'-0"
140
0.03125
141
12.0
290
     0
  0
SCALE
  5
5C
102
{ACAD_REACTORS
330
47
102
}
330
47
100
AcDbScale
 70
     0
300
1/16" = 1'-0"
140
0.0625
141
12.0
290
     0
  0
SCALE
  5
5D
102
{ACAD_REACTORS
330
47
102
}
330
47
100
AcDbScale
 70
     0
300
3/32" = 1'-0"
140
0.09375
141
12.0
290
     0
  0
SCALE
  5
5E
102
{ACAD_REACTORS
330
47
102
}
330
47
100
AcDbScale
 70
     0
300
1/8" = 1'-0"
140
0.125
141
12.0
290
     0
  0
SCALE
  5
5F
102
{ACAD_REACTORS
330
47
102
}
330
47
100
AcDbScale
 70
     0
300
3/16" = 1'-0"
140
0.1875
141
12.0
290
     0
  0
SCALE
  5
60
102
{ACAD_REACTORS
330
47
102
}
330
47
100
AcDbScale
 70
     0
300
1/4" = 1'-0"
140
0.25
141
12.0
290
     0
  0
SCALE
  5
61
102
{ACAD_REACTORS
330
47
102
}
330
47
100
AcDbScale
 70
     0
300
3/8" = 1'-0"
140
0.375
141
12.0
290
     0
  0
SCALE
  5
62
102
{ACAD_REACTORS
330
47
102
}
330
47
100
AcDbScale
 70
     0
300
1/2" = 1'-0"
140
0.5
141
12.0
290
     0
  0
SCALE
  5
63
102
{ACAD_REACTORS
330
47
102
}
330
47
100
AcDbScale
 70
     0
300
3/4" = 1'-0"
140
0.75
141
12.0
290
     0
  0
SCALE
  5
64
102
{ACAD_REACTORS
330
47
102
}
330
47
100
AcDbScale
 70
     0
300
1" = 1'-0"
140
1.0
141
12.0
290
     0
  0
SCALE
  5
65
102
{ACAD_REACTORS
330
47
102
}
330
47
100
AcDbScale
 70
     0
300
1-1/2" = 1'-0"
140
1.5
141
12.0
290
     0
  0
SCALE
  5
66
102
{ACAD_REACTORS
330
47
102
}
330
47
100
AcDbScale
 70
     0
300
3" = 1'-0"
140
3.0
141
12.0
290
     0
  0
SCALE
  5
67
102
{ACAD_REACTORS
330
47
102
}
330
47
100
AcDbScale
 70
     0
300
6" = 1'-0"
140
6.0
141
12.0
290
     0
  0
SCALE
  5
68
102
{ACAD_REACTORS
330
47
102
}
330
47
100
AcDbScale
 70
     0
300
1'-0" = 1'-0"
140
12.0
141
12.0
290
     0
  0
ENDSEC
  0
EOF
